II PIEŚŃ SŁUGI PAŃSKIEGO (1 WERSJA)

 

Strojenie: H FIS H E AS CIS

To jest strojenie tzw. drooped H (stroi sie tak samo jak dropped D (DADGHE), tylko cała gitara zestrojona dodatkowo małą tercję w dół. Takie strojenie daje bardzo ciężkie, hardcorowe brzmienie. Struny są w tym strojeniu dość luźne, więc najlepiej założyć grube i twarde, np. 10-tki, albo nawet 11-tki. Kawałek można grać również w strojeniu dropped D, ale orginalnie 2TM2,3 gra w H (Lica lubi takie klimaty).

Tempo 155
INTRO:

Riff1 x4

----------------------------------------------|------------------------------|-
----------------------------------------------|------------------------------|-
-4:-------------------------------------------|------------------------------|-
-4:------------------5-5-5-5-5-5--8-6-0-8-6-0-|------------------------------|-
---------5-5-5-5-5-5-5-5-5-5-5-5--8-6-0-8-6-0-|-5-------5--------8-6-0-8-6-0-|-
---------5-5-5-5-5-5-5-5-5-5-5-5--8-6-0-8-6-0-|-5-------5--------8-6-0-8-6-0-|-

ZWROTKA 1:

-----------------------------|-----------------------------|-------------------
-----------------------------|-----------------------------|-------------------
-----------------------------|-----------------------------|-------------------
-5--5-5--5-5--5--8-6-0-8-6-0-|-5--5-5--5-5--5--8-6-0-8-6-0-|-6--6-6--6-6--3--3-
-----------------------------|-----------------------------|-------------------
-----------------------------|-----------------------------|-------------------

Wyspy dalekie, Narody wszystkie tak mówi Pan

--------|------------------------------|-----------------------------|--------
--------|------------------------------|-----------------------------|--------
--------|------------------------------|-----------------------------|--------
-3--3-3-|-5--5-5--5-5--5---8-6-0-8-6-0-|-5--5-5--5-5--5--8-6-0-8-6-0-|-5--5-5-
--------|------------------------------|-----------------------------|--------
--------|------------------------------|-----------------------------|--------

Święty Izraela "Do tego, kto ma życie

----------------------|--------------------------|------------------------------
----------------------|--------------------------|------------------------------
----------------------|--------------------------|------------------------------
--5-5--5--8-6-0-8-6-0-|-6--6-6--6-6--3--3-3--3-3-|-5--5-5--5-5--5---8-6-0-8-6-0-
----------------------|--------------------------|------------------8-6-0-8-6-0-
----------------------|--------------------------|------------------8-6-0-8-6-0-

sponiewierane, jest wzgardą ludów do sługi panujących"

Riff1 x4

Ja w dzień zbawienia wysłucham Ciebie,
w dniu Mojej łaski wspomogę Ciebie.
Lecz Syjon mówi: "Bóg mnie opuścił"
- jak może matka zapomnieć o swym Dziecku?

REFREN:

x3
||---------------------|------------------------||----------------|---------------
||*--------------------|-----------------------*||----------------|---------------
||---------------------|------------------------||----------------|---------------
||--9-----------6------|-8----------------------||-9--------6-----|---5-----------
||*-9-----------6------|-8---------------------*||-9--------6-----|---5-----------
||--9-----------6------|-8----------------------||-9--------6-----|---5-----------
Królowie Cię ujrzą, ujrzą i staną zdumieni
książeta całej ziemi

na twarz upadną bo ja Cię wybrałem! ja Cię wybrałem! Ja!

ZWROTKA 2:

Riff1 X1

"Lecz choćby nawet matka zapomniała o swym dziecku,
Ja nie zapomnę, ja nie zapomnę Ciebie.
Popatrz na moich dłoniach mam cię wypisaną
na moich dłoniach mam cię wypisaną"

REFREN

INTRO

SOLO:

|-----------------------|-----------------------|---------------------|-----
|-----------------------|-----------------------|---------------------|-----
|-----------------------|-----------------------|---------------------|-----
|--/9-----10p9-10p9\6p5-|--/9-----10p9-10p9\6p5-|--/10---10/12--12b14-|-12--
|-----------------------|-----------------------|---------------------|-----
|-----------------------|-----------------------|---------------------|-----

tremolo
-----------|------------|---------------|-------------------------------
-----------|------------|---------------|-------------------------------
-----------|------------|---------------|-------------------------------
-9~----/10-|-/9----9-10-|-12------10-12-|-13---/15---/-/17---17---------
-----------|------------|---------------|-------------------------------
-----------|------------|---------------|-------------------------------

REFREN x2

 

Legend
------

h = hammer-on
p = pull-off
b = bend
r = bend release
/ = slide up/down
<5> = natural harmonic
[5] = artifical harmonic
~ = vibrato
tr = trill
*, P.M. = palm muting
--3-- = triplet

 

Opracował: Łoś