BENEDICTUS

 

Strojenie: B F B DIS G C

Tempo: 145
Jeśli nie zaznaczono inaczej, całość z distortion.
INTRO:

Riff 1: (z kaczką i czymś jeszcze)
x4
--||-----------------------------------------------------||
--||*---------------------------------------------------*||
4:||---19-19-19-19-19-19-19-19-19-19-19-19-19-19-19-19---||
4:||----x--x--x--x--x--x--x--x--x--x--x--x--x--x--x--x---||
--||*--17-17-17-17-17-17-17-17-17-17-17-17-17-17-17-17--*||
--||-----------------------------------------------------||

Fill 1: (z kaczką i czymś jeszcze)

|-------------------------|-------------------------|-------------------------|
|-------------------------|-------------------------|-------------------------|
|-------------------------|-------------------------|-------------------------|
|-14---12---10---12-10-12-|-14---12---10---12-10-12-|-14---12---10---12-10-12-|
|-------------------------|-------------------------|-------------------------|
|-------------------------|-------------------------|-------------------------|

|-----------------------|
|-----------------------|
|-----------------------|
|-14---12---10---12~----|
|-----------------------|
|-----------------------|

Fill 2: (z kaczką)
x3
||--------------|----------------||--|-------------|------------------------
||*-------------|-----10b(11)~--*||--|-------------|------------------------
||--------------|----------------||--|-------------|------------------------
||------12~-11~-|-10~------------||--|-----12~-11~-|-10~--///\\\\////\\\----
||*-------------|---------------*||--|-------------|------------------------
||--0-----------|----------------||--|-0-----------|------------------------

ZWROTKA 1:

Riff 2: (Drężek, również z kaczką) x6
||------------------------------|---------------------||
||*-----------------------------|--------------------*||
||------------------------------|---------------------||
||------7------------6----------|---5----2----/7b(8)~-||
||*-----5------------4----------|---3----0-----------*||
||--0---------------------------|---------------------||
Błogosławion niech będzie Pan! (Alleluja!)

Bóg Izraela
Bo nawiedził i odkupił swój lud (Alleluja!)
wzbudzając Zbawiciela
Z domu Dawida swojego sługi
Z domu Dawida swojego sługi

REFREN: (już bez kaczki, bardzo ciężko)

Riff 3 x4
P.M.......................|
||------------------------||
||*----------------------*||
||------------------------||
||------------------------||
||*--3---5---3---5--{5}~-*||
||---3---5---3---5--{5}~--||
Alle lu lu lu lu

lu lu lu lu lu lu

Allelu lu lu lu lu lu lu

Alleluja!!!

 

Legend
------

h = hammer-on
p = pull-off
b = bend
r = bend release
/ = slide up/down
<5> = natural harmonic
[5] = artifical harmonic
~ = vibrato
tr = trill
*, P.M. = palm muting
--3-- = triplet

 

Opracował: Łoś