EFFATHA

 

Strojenie: H FIS H E GIS CIS

Wypisałem wszystkie RIFF-y w tej piosence, nie pisałem co jak po kolei się gra, bo byłoby to bardzo nieprzejrzyste. Myślę, że tyle wystarczy...

*** [RIFF 1] (zwrotka)

Gitara 1 Gitara 2 (ciągle)
-|---------------------------------|---------------------|--
-|--13-15-----13-15-----13-15------|---------------------|--
-|---------14--------15------------|---------------------|--
-|-----------------------------15--|--7-7-7-7-7-7-7-7-7--|--
-|---------------------------------|--5-5-5-5-5-5-5-5-5--|--
-|---------------------------------|--0-0-0-0-0-0-0-0-0--|--
L.P.M................

*** [RIFF 2] (refren)

-|-----------------------------------|--
-|-----------------------------------|--
-|-----------------------------------|--
-|--3-0-3-0-3-2-0-2-0-2-0-3-2-3-2-0--|--
-|--3-0-3-0-3-2-0-2-0-2-0-3-2-3-2-0--|--
-|--3-0-3-0-3-2-0-2-0-2-0-3-2-3-2-0--|--
P.M...............................

*** [RIFF 3] (jedna z wersji refrenu)

-|-----------------------|--
-|-----------------------|--
-|-----------------------|--
-|--3-0-3-0-3-2-0-2-0-2--|--
-|--3-0-3-0-3-2-0-2-0-2--|--
-|--3-0-3-0-3-2-0-2-0-2--|--
P.M....................

*** [RIFF 4] (tylko raz, pod koniec utworu)

-|-----------------------------|--
-|-----------------------------|--
-|-----------------------------|--
-|--3--2---3-2---3--2---3-3-2--|--
-|--3--2---3-2---3--2---3-3-2--|--
-|--3--2---3-2---3--2---3-3-2--|--
H.P.M.........................

 

LEGENDA

P.M. - Palm muting (L-light, H-heavy)

 

Opracowanie: ZEUS