EXODUS

 

Exodus, movement of Jah people
Exodus, movement of Jah people

Men and people will fight ya down
When ya see Jah light
Let me tell you, if you're not wrong
Everything is alright
So we gonna walk, alright, through the roads of creation
We're the generation
Trod through great tribulation

Exodus, movement of Jah people
Exodus, movement of Jah people

Open your eyes and look within
Are you satisfied with the life you're living?
We know where we're going;
we know where we're from
We're leaving Babylon,
we're going to our fatherland

Exodus, movement of Jah people
Exodus, movement of Jah people

Movement of Jah people
Movement of Jah people
Movement of Jah people
Movement of Jah people

Jah come to break down 'pression, rule equality
Wipe away transgression,
Set the captives free
Set the captives free
Set the captives free
Set the captives free

Movement of Jah people
Movement of Jah people
Movement of Jah people
Movement of Jah people

 

Strojenie: E A D G H E

Przez cały utwór: a

A druga gitara:
E|-----------------------------------|
H|-----------------------------------|
G|--------------------5--------------|
D|-7---5---7--5--7---------7---5-6-7-|
A|-----------------------------------|
E|-----------------------------------|

Potem:
A H C D i powrót na a
E|-5-----7----8-----10-|
H|-5-----7----8-----10-|
G|-6-----8----9-----11-|
D|-7-----9----10----12-|
A|-7-----9----10----12-|
E|-5-----7----8-----10-|

Następnie: Moovement of Jah people!

 

Nadesłał: Andrew