LIST DO KOŚCIOŁA (1 WERSJA)

 

Strojenie: H FIS H E GIS CIS

Gtr I (H F# H E G# C#) - 'czysta'
Gtr II (H F# H E G# C#) - 'distortion'

Tempo=90

4/4

-=ZWROTKA 1=-
RIFF 1

Gtr I
4x
||------------------|-------------------||-----------------|-------------|
||o-----------------|------------------o||-----------------|-------------|
||------------------|-------------------||-----------------|-------------|
||------5-------5---|-----8-------10----||-----5-------5---|-----8S10----|
||o---3---3---3---3-|---6---6---8----8-o||---3---3---3---3-|---6---------|
||--3-------3-------|-6-------8---------||-3-------3-------|-6-----------|

Znam Twoje postępowanie
Nie jesteś zimny ani gorący

Obyś był zimny, albo gorący, nie zaś letni.

-=ZWROTKA 2=-

Mówisz "jestem bogaty"
a nie zdajesz sobie sprawy, że jesteś nieszczęśliwy
godny współczucia, ubogi,
ślepy i nagi

-=REFREN=-

RIFF 2
_____________________ _______________
| 1.,2.,3. | | 4.
Gtr II
4x
||--------------------|--------------------||----------------|
||o-------------------|-------------------o||----------------|
||--------------------|--------------------||----------------|
||--------------------|--------------------||----------------|
||o-0-0-12--0-0-10-12-|-0-0-12--0-0-12-10-o||-0-0-12--0-0-1--|
||--0-0-12--0-0-10-12-|-0-0-12--0-0-12-10--||-0-0-12--0-0-1--|

Tak, mówi Amen
Tak, mówi Amen
Tak, mówi Amen
Tak, mówi Amen

-=ZWROTKA 3=-

Radzę Ci u mnie zakupić
Złota i białe szaty
balsam na oczy, abyś mógł przejrzeć
balsam na oczy, abyś mógł przejrzeć

-=REFREN=-

-=ZWROTKA 4=-

Tych których kocham doświadczam,
bądź więc gorliwy i opamiętaj się
słuchaj mojego głosu
słuchaj mojego głosu

-=REFREN=-

-=OUTRO=-

RIFF 3

PM--| PM----| PM|
7x
||---------------|----------------||---------*|
||o--------------|---------------o||---------*|
||---------------|----------------||---------*|
||---------------|----------------||---------*|
||o-0-0-0--------|-0-0-0-0-------o||-0-0-----*|
||--0-0-0--------|-0-0-0-0--------||-0-0-----*|

 

Tablature Legend
----------------
h - hammer-on
p - pull-off
b - bend
pb - pre-bend
r - bend release (if no number after the r, then release immediately)
/\ - slide into or out of (from/to "nowhere")
s - legato slide
S - shift slide
- natural harmonic
[n] - artificial harmonic
n(n) - tapped harmonic
~ - vibrato
tr - trill
T - tap
TP - trem. picking
PM - palm muting
\n/ - tremolo bar dip; n = amount to dip
\n - tremolo bar down
n/ - tremolo bar up
/n\ - tremolo bar inverted dip
= - hold bend; also acts as connecting device for hammers/pulls
<> - volume swell (louder/softer)
x - on rhythm slash represents muted slash
o - on rhythm slash represents single note slash

 

Misc Legend
-----------
| - bar
|| - double bar
||o - repeat start
o|| - repeat end
*| - double bar (ending)
: - bar (freetime)
$ - Segno
& - Coda
Tempo markers - <E/E./Q/Q./H/H.> = BPM(8/16=s8/s16), where s8 = swing 8ths, s16 = swing 16ths

 

Opracował: Łoś