LIST DO KOŚCIOŁA (2 WERSJA)

 

Strojenie: H FIS H E GIS CIS

------------------------------------------------------------------
Zwrotka - RIFF 1 (jedna wariacja w 1 zwrotce - proste)
Refren - RIFF 2
Zakończenie - RIFF 3
------------------------------------------------------------------

*** [RIFF 1]
--|------------------------------------------|--
--|-------8----------8-----------------------|--
--|------------------------------------------|--
--|----10---10----10---10------8--------10\--|--
--|--8----------8------------6---6----8------|--
--|------------------------6--------8--------|--

*** [RIFF 2]

/x7 (przejście)
--|------------------------|--------------------|-------------------|--
--|------------------------|--------------------|-------------------|--
--|--------7~--------7-5~--|--------7~----------|-------------------|--
--|--0-0---7~--0-0---7-5~--|--0-0---7~--0-0-1~--|--0~---[SOLO]---0--|--
--|--0-0---5~--0-0---5-3~--|--0-0---5~--0-0-1~--|--0~--[JOSZKI]--0--|--
--|--0-0-------0-0---------|--0-0-------0-0-1~--|--0~------------0--|--

*** [RIFF 3]

/x4
--|--------------------|-------|--
--|--------------------|-------|--
--|--------------------|-------|--
--|--0-0-0----0-0-0-0--|--0-0--|--
--|--0-0-0----0-0-0-0--|--0-0--|--
--|--0-0-0----0-0-0-0--|--0-0--|--
P.M..........................