POZWÓLCIE DZIECIOM

 

Strojenie: H FIS H E GIS CIS

Gtr I (H F# H E G# C#) - 'clean'
Gtr II (H F# H E G# C#) - 'distortion'

Tempo=140

4/4

-=ZWROTKA 1=-

RIFF 1

Gtr I
8x
||----5----7--|---3----3---||
||o---7----8--|---5----5--o||
||----7----7--|---5----5---||
||----7----5--|---5----5---||
||o---5-------|---3----3--o||
||------------|------------||

Pozwól dziecku co w tobie jest do mnie przyj¶ę
Pozwól dziecku nie zabraniaj mu
I-i-i-i-id¼ sprzedaj wszystko co masz
I-i-i-i-id¼ sprzedaj wszystko co masz
I-i-i-i-id¼ sprzedaj wszystko
rozdaj ubogim i do mnie przyjd¼

-=REFREN=-

RIFF 2 RIFF 3
Gtr II
4x
||------------|--------------||-||------------|----------------||
||o-----------|-------------o||-||o-----------|---------------o||
||--5-------7-|-3---7-8-7-3--||-||--5-------7-|-3---7-----7----||
||--5-------7-|-3---7-8-7-3--||-||--5-------7-|-3---7-5---7----||
||o-3-------5-|-1---5-6-5-1-o||-||o-3-------5-|-1---5-5---5---o||
||------------|--------------||-||------------|-------5--------||
Hej!

Pozwólcie dzieciom przychodzię do mnie
Pozwólcie dzieciom nie zabraniajcie
Pozwólcie dzieciom przychodzię do mnie
Pozwólcie dzieciom Hej!

-=ZWROTKA 2=-

RIFF 2

RIFF 3
4x
||------------|-------||
||o-----------|------o||
||------------|-5-----||
||--0----5----|-5-----||
||o-0----5----|-3----o||
||--0----5----|-------||

Do takich naleæy królestwo niebieskie
Kto stanie siź jak dziecko, ten wejdzie tam
Kaædy, kto jest dzieckiem naleæy do mnie
bo dziecko kocha i do mnie chce

-=REFREN=-

-=ZWROTKA 3=-
Sprzedaj wszystko /6x

RIFF 1 /4x

-=ZWROTKA 4=-

RIFF 3 /4x

Pozwól dziecku, co w Tobie jest
Pozwól dziecku, nie zabraniaj mu
Id¼ sprzedaj wszystko co masz
Id¼ sprzedaj wszystko i do mnie przyjd¼

-=REFREN=-

-=FINAL=-

RIFF 5
8x
||------------|------------||
||o-----------|-----------o||
||--5------7--|------------||
||--5------7--|-3------5---||
||o-3------5--|-3------5--o||
||------------|-3------5---||

Pozwólcie dzieciom przychodzię do mnie /8x

-=OUTRO=-

4x
||------15--------|-15------15---||
||o---------15----|-----15------o||
||----------------|--------------||
||--14------------|--------------||
||o---------------|-------------o||
||----------------|--------------||

 

Tablature Legend
----------------
h - hammer-on
p - pull-off
b - bend
pb - pre-bend
r - bend release (if no number after the r, then release immediately)
/\ - slide into or out of (from/to "nowhere")
s - legato slide
S - shift slide
- natural harmonic
[n] - artificial harmonic
n(n) - tapped harmonic
~ - vibrato
tr - trill
T - tap
TP - trem. picking
PM - palm muting
\n/ - tremolo bar dip; n = amount to dip
\n - tremolo bar down
n/ - tremolo bar up
/n\ - tremolo bar inverted dip
= - hold bend; also acts as connecting device for hammers/pulls
<> - volume swell (louder/softer)
x - on rhythm slash represents muted slash
o - on rhythm slash represents single note slash

 

Misc Legend
-----------
| - bar
|| - double bar
||o - repeat start
o|| - repeat end
*| - double bar (ending)
: - bar (freetime)
$ - Segno
& - Coda
Tempo markers - <E/E./Q/Q./H/H.> = BPM(8/16=s8/s16), where s8 = swing 8ths, s16 = swing 16ths

 

Opracowa³: £o¶