PSALM 122

 

Strojenie: H FIS H E GIS CIS

W tym utworze jest dużo różnych kombinacji niżej wypisanych riff'ów. Dlatego, żeby tabulatura była przejrzysta, wypisałem tylko riff'y. Zapaleni gracze i tak dopasują je sobie do miejsca w utworze.

-----------------------------------------------------------------------------------------
* Ogólne uwagi to tak: (wg mnie)
Zwrotka - RIFF 1 (zakonczenia za 4 razem rózne A, B lub C) + RIFF 2 (druga gitara)
- w polowie zostaje tylko RIFF 1
Refren - RIFF 3 (po nim raz RIFF 1 znów z róznymi koncówkami)
Przejscie - RIFF 4 + RIFF 3
Przejscie spiewane ("Proscie o pokój...") - RIFF 1 + RIFF 2
Zakonczenie piosenki - RIFF 1+D
-----------------------------------------------------------------------------------------

*** [RIFF 1]
(A) (B) (C)
--|----------------|---------------|-----------------------|------------------------|--
--|----------------|---------------|-----------------------|------------------------|--
--|----------------|--12-----------|-----------------------|--10-------10-----------|--
--|------12---12~--|-----14---14~--|--14/19--14/17--12/14--|-----12-12----12-12-12--|--
--|--/14----x------|--------x------|-----------------------|------------------------|--
--|----------------|---------------|-----------------------|------------------------|--

(D)
--|-------------------------------|--
--|-------------------------------|--
--|--10--14~--15~--14-14--10-10---|--
--|-------------------------------|--
--|-------------------------------|--
--|-------------------------------|--

*** [RIFF 2]
--|-------------------------|--
--|-------------------------|--
--|-------------------------|--
--|-----------------7--7~---|--
--|--2/5-x-5~-------7--7~---|--
--|-----------------7--7~---|--

*** [RIFF 3]
--|------------------------|--
--|------------------------|--
--|------------------------|--
--|--5~-----------7~-------|--
--|--5~-----------7~-------|--
--|--5~-----------7~-------|--

*** [RIFF 4]
--|-----------------------------------------------|--
--|-----------------------------------------------|--
--|-----------------------------------------------|--
--|-------------------------14/19--14/17--12/14~--|--
--|--14/19--14/17--12/14~-------------------------|--
--|-----------------------------------------------|--

 

Legend
------

/ = slide up

 

Opracował: Łoś