PSALM 130

 

Strojenie: H FIS H E GIS CIS

Gtr I (H F# H E G# C#) - 'Litza'
Gtr II (H F# H E G# C#) - 'Drezmak (wah-wah)'
Gtr III (H F# H E G# C#) - 'Litza (distortion)'
Gtr IV (H F# H E G# C#) - 'Drezmak (distortion)'

Temnpo=60

4/4

-=INTRO=-

RIFF 1a

Gtr II
|----------------------------|--------------------------|
|----------------------------|--------------------------|
|----11b12r11-7--(7)-5---3---|-2--9b10r9-7--(7)-5---3---|
|----------------------------|--------------------------|
|-----9b10r=9-5--(5)-3---1---|-0--7b8r=7-5--(5)-3---1---|
|-0--------------------------|--------------------------|
|
| Gtr I
|----------------------------|--------------------------|
|----------------------------|--------------------------|
|----------------------------|--------------------------|
|----------------------------|--------------------------|
|----------------------3---1-|--------------------3---1-|
|--------------------1---1---|-0----------------1---1---|

RIFF 1b
3x
||-----------------------------|-----------------------------||
||o----------------------------|----------------------------o||
||--2--11b12r11-7--(7)-5---3---|-2--9b10r9-7--(7)-5---3------||
||-----------------------------|-----------------------------||
||o-0---9b10r=9-5--(5)-3---1---|-0--7b8r=7-5--(5)-3---1-----o||
||-----------------------------|-----------------------------||
|
| 3x
||-----------------------------|-----------------------------||
||o----------------------------|----------------------------o||
||-----------------------------|-----------------------------||
||-----------------------------|-----------------------------||
||o----------------------3---1-|--------------------3---1---o||
||--0------------------1---1---|-0----------------1---1------||

-=ZWROTKA 1=-

RIFF 1c

Gtrs I,II
|------------------------|----------------------|
|------------------------|----------------------|
|----11b12r11-7--(7)-5-3-|-2--9b10r9-7--(7)-5-3-|
|------------------------|----------------------|
|-----9b10r=9-5--(5)-3-1-|-0--7b8r=7-5--(5)-3-1-|
|-0----------------------|----------------------|

Z glebokosci wolam do Ciebie

RIFF 1d
3x
||-------------------------|-----------------------||
||o------------------------|----------------------o||
||--2--11b12r11-7--(7)-5-3-|-2--9b10r9-7--(7)-5-3--||
||-------------------------|-----------------------||
||o-0---9b10r=9-5--(5)-3-1-|-0--7b8r=7-5--(5)-3-1-o||
||-------------------------|-----------------------||

Panie wysluchaj mego glosu
Niech twe uszy beda otwarte
Na glos mojej modlitwy

(Calosc 2x)

-=REFREN=-

RIFF 2
C#5
Gtr III
||---------------------------------------|
||o--------------------------------------|
||--------------------------11b12r==11---|
||--9-9-9-9-9-9-9-9-9-9-9-9--------------|
||o-7-7-7-7-7-7-7-7-7-7-7-7--9b10r===9---|
||---------------------------------------|
|
| Gtr IV
||---------------------------------------|
||o--------------------------------------|
||---------------------------------------|
||--9-9-9-9-9-9-9-9-9-9-9-9--9----9--9-9-|
||o-7-7-7-7-7-7-7-7-7-7-7-7--7----7--7-7-|
||---------------------------------------|
Pan Bóg odkupi Izra-

|---------------------------------------|
|---------------------------------------|
|---------------------------------------|
|-9-9-9-9-9-9-9-9-9-9-9-9--9----9--9-9--|
|-7-7-7-7-7-7-7-7-7-7-7-7--7----7--7-7--|
|---------------------------------------|
|
|---------------------------------------|
|---------------------------------------|
|-------------------------11b12r==11----|
|-9-9-9-9-9-9-9-9-9-9-9-9---------------|
|-7-7-7-7-7-7-7-7-7-7-7-7--9b10r===9----|
|---------------------------------------|

ela

___________________________
| 1. |
B5 C5
Gtr III
|----------------------------------|-----------------------------||
|----------------------------------|----------------------------o||
|-------------------------11b12r11-|-----------------------------||
|-7-7-7-7-7-7-7-7-7-7-7-7----------|-7-7-7-7-7-7-7-7-7-7-7-7-8---||
|-5-5-5-5-5-5-5-5-5-5-5-5--9b10r=9-|-5-5-5-5-5-5-5-5-5-5-5-5-6--o||
|----------------------------------|-----------------------------||
|
| Gtr IV
|----------------------------------|-----------------------------||
|----------------------------------|----------------------------o||
|-------------------------11b12r11-|-----------------------------||
|-7-7-7-7-7-7-7-7-7-7-7-7----------|-7-7-7-7-7-7-7-7-7-7-7-7-8---||
|-5-5-5-5-5-5-5-5-5-5-5-5--9b10r=9-|-5-5-5-5-5-5-5-5-5-5-5-5-6--o||
|----------------------------------|-----------------------------||

Ze wszystkich jego grzechów Ze wszystkich jego grzechów

_______________
| 2.
B5 A5
Gtrs III, IV
|----------------------|
|----------------------|
|----------------------|
|-7-7-7-7-7-7-7-7-5----|
|-5-5-5-5-5-5-5-5-3----|
|----------------------|

Ze wszystkich grzechów

-=ZWROTKA 2=-

Jesli zachowasz pamiec o grzechach
któz sie ocali, któz sie ocali?
Jesli zachowasz pamiec o grzechach
któz sie ocali, któz sie ocali?
Lecz ty udzielasz przebaczenia
bo ty jestes pelen milosci

-=REFREN=- /2x

-=OUTRO=-

RIFF 1c, 1d

Gtr I
|-------------------------------------------*|
|-------------------------------------------*|
|-------------------------------------------*|
|-19S12-12-12-12S15-15S14-14S15-15S19-19S22-*|
|-------------------------------------------*|
|-------------------------------------------*|

 

Tablature Legend
----------------
h - hammer-on
p - pull-off
b - bend
pb - pre-bend
r - bend release (if no number after the r, then release immediately)
/\ - slide into or out of (from/to "nowhere")
s - legato slide
S - shift slide
- natural harmonic
[n] - artificial harmonic
n(n) - tapped harmonic
~ - vibrato
tr - trill
T - tap
TP - trem. picking
PM - palm muting
\n/ - tremolo bar dip; n = amount to dip
\n - tremolo bar down
n/ - tremolo bar up
/n\ - tremolo bar inverted dip
= - hold bend; also acts as connecting device for hammers/pulls
<> - volume swell (louder/softer)
x - on rhythm slash represents muted slash
o - on rhythm slash represents single note slash

 

Misc Legend
-----------
| - bar
|| - double bar
||o - repeat start
o|| - repeat end
*| - double bar (ending)
: - bar (freetime)
$ - Segno
& - Coda
Tempo markers - <E/E./Q/Q./H/H.> = BPM(8/16=s8/s16), where s8 = swing 8ths, s16 = swing 16ths

 

Opracował: Łoś