PSALM 40 (1 WERSJA)

 

Strojenie: H FIS H E GIS CIS

Gtr I (H F# H E G# C#) - 'Lica'
Gtr II (H F# H E G# C#) - 'Drezmak'

Tempo=85

4/4

-=INTRO=-

RIFF 1

Gtrs I, II
8x
||-------------------------------------------------||
||o-----------------------------------------------o||
||----------------------------14----<14>-----------||
||----------------------------13-------<13>--------||
||o-1-1---0-0---6-6---5-------12----------<12>----o||
||--1-1---0-0-------------0------------------<15>--||

-=ZWROTKA 1=-

RIFF 2

Gtr II
PM----| PM----|
4x
||------------------------------|------------------------------||
||o-----------------------------|-----------------------------o||
||---------------14-------------|-------------14---------------||
||---------------13-------------|-------------13---------------||
||o-1-0-0-0-0----12-------------|-1-0-0-0-0---12--------------o||
||--1-0-0-0-0-------------------|-1-0-0-0-0--------------------||
|
| Gtr I
| PM----| ~~~~~ PM----| ~~~~~
| 4x
||------------------------------|------------------------------||
||o--------------------13-------|--------------------10-------o||
||---------------------15b17----|--------------------12b14-----||
||------------------------------|------------------------------||
||o-1-0-0-0-0-------------------|-1-0-0-0-0-------------------o||
||--1-0-0-0-0-------------------|-1-0-0-0-0--------------------||

Ile cudów uczyniłeś dla nas Boże!
Ile planów w których nikt ci nie dorówna
Tego właśnie pragnie dusza moja
Twego prawa w głębi mego serca

-=REFREN 1=-

RIFF 1 /8x

Zaufałem memu panu
On pochylił sie nade mną
I wysłuchał mego głosu
On pochylił się nade mną

-=ZWROTKA 2=-

W moje usta włożył swoją nową pieśń
W moich ustach uwielbienie mego Boga
Położyłem swoją ufność Panie w Tobie
Zaufałem zaufałem Tobie

-=REFREN 2=-

RIFF 3a

Gtr II
||-----------------------------------------------|
||o-11-11-11-11-11-11-11-11-11-11-11-11-11-11-11-|
||-----------------------------------------------|
||---8--8--8--8--8--8--8--8--8--8--8--8--8--8--8-|
||o----------------------------------------------|
||-----------------------------------------------|
|
| ~~
||-----------------------------------------------|
||o----------------------------------------------|
||------------------3-----3--3--3--3-------------|
||------------------3-----3--3--3--3-------------|
||o--1--1--1--1--1--1-----1--1--1--1--3----------|
||---1--1--1--1--1--------------------3----------|

Gdy usłyszałem

|-------------------------------------------------|
|-10-10-10-10-10-10-10-10-10-10-10-10-10-10-10-10-|
|-------------------------------------------------|
|--7--7--7--7--7--7--7--7--7--7--7--7--7--7--7--7-|
|-------------------------------------------------|
|-------------------------------------------------|
|
|-------------------------------------------------|
|-------------------------------------------------|
|-------------/7----------------------------------|
|-------------------------------------------------|
|--0----------/5----------------------------------|
|--0----------------------------------------------|

Jego głos

RIFF 3b

Gtr II
|----------------------------------------------|
|-11-11-11-11-11-11-11-11-13-13-13-13-13-13-13-|
|----------------------------------------------|
|--8--8--8--8--8--8--8--8-10-10-10-10-10-10-10-|
|----------------------------------------------|
|----------------------------------------------|
|
| ~~
|----------------------------------------------|
|----------------------------------------------|
|-----------------3-----3--3--3--3-------------|
|-----------------3-----3--3--3--3-------------|
|--1--1--1--1--1--1-----1--1--1--1--3----------|
|--1--1--1--1--1--------------------3----------|

Na zawsze
________________________________________________
| 1. |
|--------------------------------------------------||
|-10-10-10-10-10-10-10-10-10-10-10-10-10-10-10-10-o||
|--------------------------------------------------||
|--7--7--7--7--7--7--7--7--7--7--7--7--7--7--7--7--||
|-------------------------------------------------o||
|--------------------------------------------------||
|
|--------------------------------------------------||
|-------------------------------------------------o||
|--------------------------------------------------||
|--------------------------------------------------||
|--0----------------------------------------------o||
|--0-----------------------------------------------||

pragnę wielbić Go
Błogosławiony zawsze bądź
Panie
______________________________________
| 2.
Gtrs I, II
||--------------------------------------------------||
||o------------------------------------------------o||
||----------------------------14----<14>------------||
||----------------------------13-------<13>---------||
||o-1-1---0-0---6-6---5-------12----------<12>-----o||
||--1-1---0-0-------------0------------------<15>---||

mój

-=PRE ZWROTKA=-

Gtr II
|----------------------------------------|
|----------------------------------------|
|----------------------14--<14>----------|
|----------------------13-- --<13>-------|
|--1-1-0-0-6-6----5----12--------<12>----|
|--1-1-0-0-----------0--------------<15>-|
|
| Gtr I
| ~~~~~~~~~~~~~~~
|----------------------------------------|
|-15-----------13---11--8----------------|
|----------------------------------------|
|----------------------------------------|
|----------------------------------------|
|----------------------------------------|

Gtr II - RIFF 1
|
| ~~
|-------------------------------------|
|-10----------------------------------|
|-------------------------------------|
|-------------------------------------|
|-------------------------------------|
|-------------------------------------|

| Gtr II - RIFF 1
|
| Gtr I
| ~~~~~~~~~~~
|-------------------------------------|
|-15-------13-------11S=13------------|
|-------------------------------------|
|-------------------------------------|
|-------------------------------------|
|-------------------------------------|

| Gtr II - RIFF 1
|
| ~~
|--------------------------------------|
|-8S==10-------------------------------|
|--------------------------------------|
|--------------------------------------|
|--------------------------------------|
|--------------------------------------|

-=ZWROTKA 3=-

Ileż cudów uczyniłeś dla nas Boże,
Ile planów w których nikt Ci nie dorówna
ty na skale utwierdziłeś moje stopy
ty pewnymi uczyniłeś moje kroki

-=REFREN 2=- /2x

-=OUTRO=- (tak jak pre zwrotka , zamiast RIFFU 1 początek riffu 2)

 

Tablature Legend
----------------
h - hammer-on
p - pull-off
b - bend
pb - pre-bend
r - bend release (if no number after the r, then release immediately)
/\ - slide into or out of (from/to "nowhere")
s - legato slide
S - shift slide
- natural harmonic
[n] - artificial harmonic
n(n) - tapped harmonic
~ - vibrato
tr - trill
T - tap
TP - trem. picking
PM - palm muting
\n/ - tremolo bar dip; n = amount to dip
\n - tremolo bar down
n/ - tremolo bar up
/n\ - tremolo bar inverted dip
= - hold bend; also acts as connecting device for hammers/pulls
<> - volume swell (louder/softer)
x - on rhythm slash represents muted slash
o - on rhythm slash represents single note slash

 

Misc Legend
-----------
| - bar
|| - double bar
||o - repeat start
o|| - repeat end
*| - double bar (ending)
: - bar (freetime)
$ - Segno
& - Coda
Tempo markers - <E/E./Q/Q./H/H.> = BPM(8/16=s8/s16), where s8 = swing 8ths, s16 = swing 16ths

 

Opracował: Łoś