SHLOM LECH MARIAM

 

Strojenie: H FIS H E GIS CIS

To jest strojenie tzw. drooped H (stroi się tak samo jak dropped D (DADGHE), tylko
cała gitara zestrojona dodatkowo małą tercję w dół. Takie strojenie daje bardzo
ciężkie, hardcorowe brzmienie. Struny są w tym strojeniu są dość luźne, więc
najlepiej założyć grube i twarde, np. 10-tki, albo nawet 11-tki.
Kawałek można grać również w strojeniu dropped D,
ale orginalnie 2 Tm 2,3 gra w H (Lica lubi takie klimaty).

Tempo: 135
INTRO: REFREN:

x7 Riff1

----------------||--------------||-||---------------|-------------|------------
----------------||*------------*||-||*--------------|-------------|------------
-2:-------------||--------------||-||---------------|-------------|------------
-4:-------------||--------------||-||---------------|-------------|------------
-----0----------||*-0-0--------*||-||*--3--0--0--3--|-0--0--3--0--|-0--3--0--0-
-----0----------||--0-0---------||-||---3--0--0--3--|-0--0--3--0--|-0--3--0--0-

Shlom leh
Mariat tai

x4 Riff2 x4
P.M.....| P.M.....| P.M.....|
|------------||-||-------------|------------|------------|------------||
|-----------*||-||*------------|------------|------------|-----------*||
|------------||-||-------------|------------|------------|------------||
|------------||-||-------------|------------|------------|-3--4--5~---||
|-3--4--5---*||-||*-3--0--0--0-|-3--0--0--0-|-3--0--0--0-|-3--4--5~--*||
|-3--4--5----||-||--3--0--0--0-|-3--0--0--0-|-3--0--0--0-|-3--4--5~---||

Mariam maran, maran amech
buta

ZWROTKA 1:

Riff3

||-------------------|-------------------|-------------------|--------------------||
||*------------------|-------------------|-------------------|-------------------*||
||-------------------|-------------------|-------------------|--------------------||
||-------------------|-------------------|-------------------|--------------------||
||*2-0----0-2-0----0-|-3-0----0-3-0----0-|-2-0----0-2-0----0-|-3-0----0-3-0------*||
||-2-0----0-2-0----0-|-3-0----0-3-0----0-|-2-0----0-2-0----0-|-3-0----0-3-0-5b(6)-||

Tyś jest miejscem obok mnie które Pan pokazał Mojżeszowi

Tyś jest ową skalną szczeliną,
którą Bóg przykrył swoją ręką
gdy przechodziła Jego chwała
gdy przechodziła Jego moc
gdy przechodziła Jego chwała
gdy przechodziła Jego moc

Riff4 x8

||----------------------------||
||*--------------------------*||
||---7--7-7-7-8--8-8-9-9-9-9--||
||---7--7-7-7-8--8-8-9-9-9-9--||
||*--5--5-5-5-6--6-6-7-7-7-7-*||
||----------------------------||

REFREN

ZWROTKA 2:

Ty, która nas uwalniasz
od ognia namietności
Jesteś arką przymierza
Tą, która nosi Pana
świątynią jego szechina /x4

Riff4 x8

SOLO: (Druga gitara gra Riff1 x4)

|--------------------|-------------------------|-------------------------------|
|--13b(15)-----13-10-|-13b(15)--13--10---------|-------------------------------|
|--------------------|-----------------10~\----|-----------------10----10b(12)-|
|--------------------|-------------------------|-----------10-12----12---------|
|--------------------|-------------------------|----/10-12---------------------|
|--------------------|-------------------------|-------------------------------|

-----------------------------|--------------------|-----------------------|-----
-----------------------------|--------------------|-----------------------|-----
-----10b(12)r10-----10~~~~~--|(10)----------------|-------------10~-------|-/19-
----------------12-----------|-----------12-10-12-|-------10-12--------12-|-----
-----------------------------|--------------------|-10-12-----------------|-----
-----------------------------|--------------------|-----------------------|-----

------------------20-|-------------------------------|
--18--20--20b(22)----|-(22)r20p18----18~-18~---------|
---------------------|------------19---------19~-19~-|
---------------------|-------------------------------|
---------------------|-------------------------------|
---------------------|-------------------------------|

Riff4 x8

REFREN: Riff1 x8 (nieco inna melodia)

Riff5 x20 Riff6 x8

||-------------------|------------------||-||-------------|-------------||-
||*------------------|-----------------*||-||*------------|------------*||-
||-------------------|------------------||-||-------------|-------------||-
||-------------------|------------------||-||-------------|-------------||-
||*-2-0----0-2-0-2-0-|-----0-2-0-2-0---*||-||*-2-0--------|-(0)--------*||-
||--2-0----0-2-0-2-0-|-----0-2-0-2-0----||-||--2-0--------|-(0)---------||-

Riff5:
Pierwsze cztery razy instrumentalnie
Następne osiem z tekstem "szechina,szechina,szzechina"
Ostatnie osiem z tekstem "Shlom leh Mariam"

 

Legend
------

h = hammer-on
p = pull-off
b = bend
r = bend release
/ = slide up/down
<5> = natural harmonic
[5] = artifical harmonic
~ = vibrato
tr = trill
*, P.M. = palm muting
--3-- = triplet

 

Opracował: Łoś