SZEMA IZRAEL, ADONAI ELOHENU, ADONAI EHAD

 

Strojenie: H FIS H E GIS CIS

INTRO: (mono, ciszej)

Tempo: 92

Riff 1

||------------------------------|-----------------------------|
||*-----------------------------|-----------------------------|
||------------------------------|-----------------------------|
||------------------------------|-----------------------------|
||*-0-2-2-2-x-2-2-3-3-x-3-3--3--|-0-2-2-2-x-2-2-3-3-x-3-3--3--|
||--0-2-2-2-x-2-2-3-3-x-3-3--3--|-0-2-2-2-x-2-2-3-3-x-3-3--3--|

x4

|-----------------------------|-------------------------------||
|-----------------------------|------------------------------*||
|-----------------------------|-------------------------------||
|-----------------------------|--------------------------x-x--||
|-0-2-2-2-x-2-2-3-3-x-3-3--3--|-0-2-2-2-x-2-2-3-3-x-3-3--x-x-*||
|-0-2-2-2-x-2-2-3-3-x-3-3--3--|-0-2-2-2-x-2-2-3-3-x-3-3--x-x--||

(Po dwóch pierwszych razach z tekstem)

Szema Israel, Adonai Elohenu. Szema Israel Adonai Ehad.

REFREN: (stereo, glosnosc full)

Riff 2

||----------------------------------|--------------------------------------|
||*---------------------------------|--------------------------------------|
||----------------------------------|--------------------------------------|
||--0-2-2-2-2-2-2-2-3-3-3-3-3-3-5-5-|------0-2-2-2-2-2-2-2-3-3-3-3-3-3-5-5-|
||*-0-2-2-2-2-2-2-2-3-3-3-3-3-3-5-5-|------0-2-2-2-2-2-2-2-3-3-3-3-3-3-5-5-|
||--0-2-2-2-2-2-2-2-3-3-3-3-3-3-5-5-|------0-2-2-2-2-2-2-2-3-3-3-3-3-3-5-5-|
Adonai Elohenu Adonai Elohenu Ehad

x2

|---------------------------------|-----------------------------------||
|---------------------------------|----------------------------------*||
|---------------------------------|-----------------------------------||
|-0-2-2-2-2-2-2-2-3-3-3-3-3-3-5-5-|-0-2-2-2-2-2-2-2-3-3-3-3--x-x-x-x--||
|-0-2-2-2-2-2-2-2-3-3-3-3-3-3-5-5-|-0-2-2-2-2-2-2-2-3-3-3-3--x-x-x-x-*||
|-0-2-2-2-2-2-2-2-3-3-3-3-3-3-5-5-|-0-2-2-2-2-2-2-2-3-3-3-3--x-x-x-x--||
Adonai Elohenu Elohenu Adonai

ZWROTKA:

Riff 1 /x2

Bedziesz kochac Pana calym swoim sercem
calym swym umyslem, cala swoja moca /2x

Riff 3 x4

||-------------------------------||
||*-----------------------------*||
||-------------------------------||
||--0-2-2-0-2-2-2-3-x-3-3-x-3-3--||
||*-----------------------------*||
||-------------------------------||
"W zwoju ksiegi o mnie napisano,

ze mam Panie pelnic Twoja wole
Boze mój, tego wlasnie pragne,
Twego prawa z glebi mego serca"

REFREN

ZWROTKA

REFREN

BRIDGE:

|-----------|------------|------------|------------|
|-----------|------------|------------|------------|
|-----------|------------|------------|------------|
|-----------|------------|------------|------------|
|-0---------|-(0)--------|-(0)--------|-(0)--------|
|-0---------|-(0)--------|-(0)--------|-(0)--------|

Riff 3 /x4 (b. cicho i stlumiony)

REFREN

OUTRO:

x7
||------------||-----------------|
||*----------*||-----------------|
||------------||-----------------|
||--0---------||-0---------------|
||*-0------x-*||-0---------------|
||--0------x--||-0--------0/12\0-|

x12
||-----------------------------------||
||*---------------------------------*||
||-----------------------------------||
||-----------------------------------||
||*---------------------------------*||
||--0-0-0-0-0-0-0-0-0-0-0-0-0-0-0-0--||
Szema Israel
Adonai Elohenu
Szema Israel
Adonai Ehad

 

Legend
------

/ = slide up/down
* = palm muting