W OBLICZU ANIOŁÓW (2 WERSJA)

 

Strojenie: E A D G H E

SOLO:
E||----------10r---8--10--|--10r---8-----------------|----------------8--10--|
B||-----------------------|-----------10------8--10/-|------------10---------|
G||-----------------------|--------------------------|-----------------------|
D||-----------------------|--------------------------|-----------------------|
A||-----------------------|--------------------------|-----------------------|
E||-----------------------|--------------------------|-----------------------|

--10b---10----8----7----8----7----|--------7-------------------|
----------------------------------|--10---------8----10--------|
----------------------------------|----------------------------|
----------------------------------|----------------------------|
----------------------------------|----------------------------|
----------------------------------|----------------------------|

--------------------------|----------------------|
--8--8/-5--5--5/-3--3/-5--|----5/-3/-5--5--------|
--------------------------|----------------------|
--------------------------|----------------------|
--------------------------|----------------------|
--------------------------|----------------------|

--17--17/-15--15--15/-12--12--12--|----12--12/-10/-12--------|
--x---x---x---x---x---x---x---x---|----x---x---x---x---------|
--14--14/-12--12--12/-9---9---9---|----9---9/--7/--9---------|
----------------------------------|--------------------------|
----------------------------------|--------------------------|
----------------------------------|--------------------------|

---------8--10--10b-----10r-|----8--7--8--7------------|
--8--10---------------------|--------------------10-10-|
----------------------------|--------------------------|
----------------------------|--------------------------|
----------------------------|--------------------------|
----------------------------|--------------------------|

---------------------------------|------------------------|
--10--8--5--8--5h8h5----5--3h5h3-|-----3------------------|
---------------------7-----------|--5-------5--2----------|
---------------------------------|----------------5--4/---|
---------------------------------|------------------------|
---------------------------------|------------------------|

--8--5--3--5----8--5--3--|--5----3--5--7/-------|--8--5--3--5----3-----3--|
--8--5--3--5----8--5--3--|--5----3--5--7/-------|--8--5--3--5----3--5--3--|
-------------------------|----------------------|-------------------4-----|
-------------------------|----------------------|-------------------------|
-------------------------|----------------------|-------------------------|
-------------------------|----------------------|-------------------------|

----3----------------|--5--5----7--7----8--8--|----10--10----8--7--8--7h8h7-|
----3--3/-5/---------|------------------------|-----------------------------|
-------2/-4/---------|------------------------|-----------------------------|
---------------------|------------------------|-----------------------------|
---------------------|------------------------|-----------------------------|
---------------------|------------------------|-----------------------------|

--5--7----------7--8/-10--|------------------|--5--5----7--7----8--8--|
--------8--5/-------------|------------------|------------------------|
--------------------------|------------------|------------------------|
--------------------------|------------------|------------------------|
--------------------------|------------------|------------------------|
--------------------------|------------------|------------------------|

----10--10----5/-3--3--2--|--2----------0----3/-|------------------|
--------------5/-3--3--2--|--2------------------|------------------|
--------------------------|---------------------|------------------|
--------------------------|---------------------|------------------|
--------------------------|---------------------|------------------|
--------------------------|---------------------|------------------|

--5--5----7--7----8--8--|----10--10----5----8--5h7-5-|--3--5--3--0----10r---8--|
------------------------|----------------------------|-------------------------|
------------------------|----------------------------|-------------------------|
------------------------|----------------------------|-------------------------|
------------------------|----------------------------|-------------------------|
------------------------|----------------------------|-------------------------|

--10--8--5--5----------|--5------3------2----|----0---------------|
-----------------------|---------------------|-----------3/-------|
-----------------------|---------------------|--------------------|
-----------------------|---------------------|--------------------|
-----------------------|---------------------|--------------------|
-----------------------|---------------------|--------------------|

2x
|---7---------5--------|--0-----------------||--0----------------|
|---10b-------8b-------|--4b----------------||--4b---------------|
|*---------------------|-------------------*||-------------------|
|*---------------------|-------------------*||-------------------|
|----------------------|--------------------||-------------------|
|----------------------|--------------------||-------------------|

---------------------|-------------------||
----------3r---1--3--|--1----------------||
---------------------|-------------------||
---------------------|-------------------||
---------------------|-------------------||
---------------------|-------------------||

 

Opracował: Andrzej Ogon