W OBLICZU ANIOŁÓW (3 WERSJA)

 

Strojenie: E A D G H E

Linia basu
A|-------8-7---------8-7---
E|---5-5-------5-5-5-------

Gitara grana przy wejsciu i w zwrotce
E|---555-7-8-7-5-3-5------555-7-8-7-5-7-5---
H|-------------------5----------------------
G|------------------------------------------
D|------------------------------------------
A|------------------------------------------
E|------------------------------------------

Refren
E|---5-5-7-7-8-8-10-10-8-7-8-7-5-7-5-3---
H|-----------------------------------5---
G|---------------------------------------
D|---------------------------------------
A|---------------------------------------
E|---------------------------------------

 

Nadesłał: maciek gaik